Mostrando desde el nro 1 al 7 de 7 en total
Ejercicios de digitacion basica para guitarra
  1. #1
    Avatar de Anu_77
    Dia registro
    17 Dec 2004
    Ubicación
    Colegiales
    Mensajes
    13,540
    Le agradecieron 5 veces en 1 Post

    Talking Ejercicios de digitacion basica para guitarra

    espero que les sirva a los que esten aprendiendo a tocar la guitarra...



    e -------------------------1-2----------------------
    b --------------------1-2------1-2------------------
    g ---------------1-2---------------1-2--------------
    d ----------1-2------------------------1-2----------
    a -----1-2---------------------------------1-2------
    E -1-2-----------------------------------------1-2--

    se usan los dedeos indice y mayor, bajamos y subimos por el 1º y 2º traste .

    e -------------------------1-3----------------------
    b --------------------1-3-----1-3------------------
    g ---------------1-3---------------1-3--------------
    d ----------1-3------------------------1-3----------
    a -----1-3---------------------------------1-3------
    E -1-3-----------------------------------------1-3--

    aca es lo mismo pero usamos los dedos indice y anular
    bajamos y subimos por los trastes 1º y 3º respectivamente.

    e -------------------------1-4----------------------
    b --------------------1-4-----1-4------------------
    g ---------------1-4---------------1-4--------------
    d ----------1-4------------------------1-4----------
    a -----1-4---------------------------------1-4------
    E -1-4-----------------------------------------1-4--

    seguimos con el mismo patron pero esta vez con el indice y el menique.

    e -------------------------2-4----------------------
    b --------------------2-4-----2-4------------------
    g ---------------2-4---------------2-4--------------
    d ----------2-4------------------------2-4----------
    a -----2-4---------------------------------2-4------
    E -2-4-----------------------------------------2-4--

    con el mayor y menique ... este es mas dificil pero esta muy bueno para practicarlo.

    e -------------------------3-4----------------------
    b --------------------3-4-----3-4------------------
    g ---------------3-4---------------3-4--------------
    d ----------3-4------------------------3-4----------
    a -----3-4---------------------------------3-4------
    E -3-4-----------------------------------------3-4--

  2. #2
    Avatar de pablito10
    Dia registro
    10 Jan 2007
    Ubicación
    En mi casa con mami y papi (que tierno el pelotudo)
    Mensajes
    2,078
    Le agradecieron 0 veces en 0 Posts

    Predeterminado Re: Ejercicios de digitacion basica para guitarra

    Hola!,
    Para ver lo que escribieron aca y dejar de navegar el foro como una RATA, tenes que registrarte
    DALE! no tengas miedo y UNITE AL MUNDO 3K.

  3. #3
    Avatar de mariscal3cab
    Dia registro
    19 Jan 2004
    Ubicación
    VALVERDE
    Mensajes
    8,301
    Le agradecieron 0 veces en 0 Posts

    Predeterminado Re: Ejercicios de digitacion basica para guitarra

    Hola!,
    Para ver lo que escribieron aca y dejar de navegar el foro como una RATA, tenes que registrarte
    DALE! no tengas miedo y UNITE AL MUNDO 3K.

  4. #4
    SIN VIDA Avatar de a77aque
    Dia registro
    10 Jul 2005
    Ubicación
    a la vuelta
    Mensajes
    6,522
    Le agradecieron 0 veces en 0 Posts

    Predeterminado Re: Ejercicios de digitacion basica para guitarra

    Hola!,
    Para ver lo que escribieron aca y dejar de navegar el foro como una RATA, tenes que registrarte
    DALE! no tengas miedo y UNITE AL MUNDO 3K.

  5. #5
    Avatar de rapptor
    Dia registro
    31 Dec 1969
    Ubicación
    la perra del atlantico.
    Mensajes
    9,364
    Le agradecieron 8 veces en 8 Posts

    Predeterminado Re: Ejercicios de digitacion basica para guitarra

    Hola!,
    Para ver lo que escribieron aca y dejar de navegar el foro como una RATA, tenes que registrarte
    DALE! no tengas miedo y UNITE AL MUNDO 3K.
    .......SOS LA MAQUINA DE IMPEDIR MAN......


  6. #6

    Dia registro
    12 Nov 2010
    Mensajes
    1
    Le agradecieron 0 veces en 0 Posts

    Predeterminado Re: Ejercicios de digitacion basica para guitarra

    Hola!,
    Para ver lo que escribieron aca y dejar de navegar el foro como una RATA, tenes que registrarte
    DALE! no tengas miedo y UNITE AL MUNDO 3K.

  7. #7

    Dia registro
    31 Jan 2011
    Mensajes
    2
    Le agradecieron 0 veces en 0 Posts

    Predeterminado Re: Ejercicios de digitacion basica para guitarra

    Hola!,
    Para ver lo que escribieron aca y dejar de navegar el foro como una RATA, tenes que registrarte
    DALE! no tengas miedo y UNITE AL MUNDO 3K.

Temas Similares

  1. [RADIO]Ejercicios Para El Locutor
    Por Urraca3k in el foro Cine / Tv / Radio / Espectáculos
    Respuestas: 2
    Último mensaje: 16-09-2007, 05:08 PM

Bookmarks

Reglas

  • You may not post new threads
  • You may not post replies
  • You may not post attachments
  • You may not edit your posts
  •